  0
SECTION
  2
HEADER
  9
$ACADVER
  1
AC1018
  9
$ACADMAINTVER
 70
    39
  9
$DWGCODEPAGE
  3
ANSI_1252
  9
$LASTSAVEDBY
  1
fottrem
  9
$INSBASE
 10
0.0
 20
0.0
 30
0.0
  9
$EXTMIN
 10
18.69472171309805
 20
8.91430286358139
 30
0.0
  9
$EXTMAX
 10
28.69471391395788
 20
18.41984989571765
 30
0.0
  9
$LIMMIN
 10
0.0
 20
0.0
  9
$LIMMAX
 10
12.0
 20
9.0
  9
$ORTHOMODE
 70
     0
  9
$REGENMODE
 70
     1
  9
$FILLMODE
 70
     1
  9
$QTEXTMODE
 70
     0
  9
$MIRRTEXT
 70
     0
  9
$LTSCALE
 40
1.0
  9
$ATTMODE
 70
     1
  9
$TEXTSIZE
 40
0.2
  9
$TRACEWID
 40
0.05
  9
$TEXTSTYLE
  7
Standard
  9
$CLAYER
  8
0
  9
$CELTYPE
  6
ByLayer
  9
$CECOLOR
 62
   256
  9
$CELTSCALE
 40
1.0
  9
$DISPSILH
 70
     0
  9
$DIMSCALE
 40
1.0
  9
$DIMASZ
 40
0.18
  9
$DIMEXO
 40
0.0625
  9
$DIMDLI
 40
0.38
  9
$DIMRND
 40
0.0
  9
$DIMDLE
 40
0.0
  9
$DIMEXE
 40
0.18
  9
$DIMTP
 40
0.0
  9
$DIMTM
 40
0.0
  9
$DIMTXT
 40
0.18
  9
$DIMCEN
 40
0.09
  9
$DIMTSZ
 40
0.0
  9
$DIMTOL
 70
     0
  9
$DIMLIM
 70
     0
  9
$DIMTIH
 70
     1
  9
$DIMTOH
 70
     1
  9
$DIMSE1
 70
     0
  9
$DIMSE2
 70
     0
  9
$DIMTAD
 70
     0
  9
$DIMZIN
 70
     0
  9
$DIMBLK
  1

  9
$DIMASO
 70
     1
  9
$DIMSHO
 70
     1
  9
$DIMPOST
  1

  9
$DIMAPOST
  1

  9
$DIMALT
 70
     0
  9
$DIMALTD
 70
     2
  9
$DIMALTF
 40
25.4
  9
$DIMLFAC
 40
1.0
  9
$DIMTOFL
 70
     0
  9
$DIMTVP
 40
0.0
  9
$DIMTIX
 70
     0
  9
$DIMSOXD
 70
     0
  9
$DIMSAH
 70
     0
  9
$DIMBLK1
  1

  9
$DIMBLK2
  1

  9
$DIMSTYLE
  2
Standard
  9
$DIMCLRD
 70
     0
  9
$DIMCLRE
 70
     0
  9
$DIMCLRT
 70
     0
  9
$DIMTFAC
 40
1.0
  9
$DIMGAP
 40
0.09
  9
$DIMJUST
 70
     0
  9
$DIMSD1
 70
     0
  9
$DIMSD2
 70
     0
  9
$DIMTOLJ
 70
     1
  9
$DIMTZIN
 70
     0
  9
$DIMALTZ
 70
     0
  9
$DIMALTTZ
 70
     0
  9
$DIMUPT
 70
     0
  9
$DIMDEC
 70
     4
  9
$DIMTDEC
 70
     4
  9
$DIMALTU
 70
     2
  9
$DIMALTTD
 70
     2
  9
$DIMTXSTY
  7
Standard
  9
$DIMAUNIT
 70
     0
  9
$DIMADEC
 70
     0
  9
$DIMALTRND
 40
0.0
  9
$DIMAZIN
 70
     0
  9
$DIMDSEP
 70
    46
  9
$DIMATFIT
 70
     3
  9
$DIMFRAC
 70
     0
  9
$DIMLDRBLK
  1

  9
$DIMLUNIT
 70
     2
  9
$DIMLWD
 70
    -2
  9
$DIMLWE
 70
    -2
  9
$DIMTMOVE
 70
     0
  9
$LUNITS
 70
     2
  9
$LUPREC
 70
     4
  9
$SKETCHINC
 40
0.1
  9
$FILLETRAD
 40
0.0
  9
$AUNITS
 70
     0
  9
$AUPREC
 70
     0
  9
$MENU
  1
.
  9
$ELEVATION
 40
0.0
  9
$PELEVATION
 40
0.0
  9
$THICKNESS
 40
0.0
  9
$LIMCHECK
 70
     0
  9
$CHAMFERA
 40
0.0
  9
$CHAMFERB
 40
0.0
  9
$CHAMFERC
 40
0.0
  9
$CHAMFERD
 40
0.0
  9
$SKPOLY
 70
     0
  9
$TDCREATE
 40
2453354.092125822
  9
$TDUCREATE
 40
2453353.717125822
  9
$TDUPDATE
 40
2454792.359135903
  9
$TDUUPDATE
 40
2454791.984135903
  9
$TDINDWG
 40
0.0504512731
  9
$TDUSRTIMER
 40
0.0504160995
  9
$USRTIMER
 70
     1
  9
$ANGBASE
 50
0.0
  9
$ANGDIR
 70
     0
  9
$PDMODE
 70
     0
  9
$PDSIZE
 40
0.0
  9
$PLINEWID
 40
0.0
  9
$SPLFRAME
 70
     0
  9
$SPLINETYPE
 70
     6
  9
$SPLINESEGS
 70
     8
  9
$HANDSEED
  5
1C3
  9
$SURFTAB1
 70
     6
  9
$SURFTAB2
 70
     6
  9
$SURFTYPE
 70
     6
  9
$SURFU
 70
     6
  9
$SURFV
 70
     6
  9
$UCSBASE
  2

  9
$UCSNAME
  2

  9
$UCSORG
 10
0.0
 20
0.0
 30
0.0
  9
$UCSXDIR
 10
1.0
 20
0.0
 30
0.0
  9
$UCSYDIR
 10
0.0
 20
1.0
 30
0.0
  9
$UCSORTHOREF
  2

  9
$UCSORTHOVIEW
 70
     0
  9
$UCSORGTOP
 10
0.0
 20
0.0
 30
0.0
  9
$UCSORGBOTTOM
 10
0.0
 20
0.0
 30
0.0
  9
$UCSORGLEFT
 10
0.0
 20
0.0
 30
0.0
  9
$UCSORGRIGHT
 10
0.0
 20
0.0
 30
0.0
  9
$UCSORGFRONT
 10
0.0
 20
0.0
 30
0.0
  9
$UCSORGBACK
 10
0.0
 20
0.0
 30
0.0
  9
$PUCSBASE
  2

  9
$PUCSNAME
  2

  9
$PUCSORG
 10
0.0
 20
0.0
 30
0.0
  9
$PUCSXDIR
 10
1.0
 20
0.0
 30
0.0
  9
$PUCSYDIR
 10
0.0
 20
1.0
 30
0.0
  9
$PUCSORTHOREF
  2

  9
$PUCSORTHOVIEW
 70
     0
  9
$PUCSORGTOP
 10
0.0
 20
0.0
 30
0.0
  9
$PUCSORGBOTTOM
 10
0.0
 20
0.0
 30
0.0
  9
$PUCSORGLEFT
 10
0.0
 20
0.0
 30
0.0
  9
$PUCSORGRIGHT
 10
0.0
 20
0.0
 30
0.0
  9
$PUCSORGFRONT
 10
0.0
 20
0.0
 30
0.0
  9
$PUCSORGBACK
 10
0.0
 20
0.0
 30
0.0
  9
$USERI1
 70
     0
  9
$USERI2
 70
     0
  9
$USERI3
 70
     0
  9
$USERI4
 70
     0
  9
$USERI5
 70
     0
  9
$USERR1
 40
0.0
  9
$USERR2
 40
0.0
  9
$USERR3
 40
0.0
  9
$USERR4
 40
0.0
  9
$USERR5
 40
0.0
  9
$WORLDVIEW
 70
     1
  9
$SHADEDGE
 70
     3
  9
$SHADEDIF
 70
    70
  9
$TILEMODE
 70
     1
  9
$MAXACTVP
 70
    64
  9
$PINSBASE
 10
0.0
 20
0.0
 30
0.0
  9
$PLIMCHECK
 70
     0
  9
$PEXTMIN
 10
0.0
 20
0.0
 30
0.0
  9
$PEXTMAX
 10
0.0
 20
0.0
 30
0.0
  9
$PLIMMIN
 10
0.0
 20
0.0
  9
$PLIMMAX
 10
12.0
 20
9.0
  9
$UNITMODE
 70
     0
  9
$VISRETAIN
 70
     1
  9
$PLINEGEN
 70
     0
  9
$PSLTSCALE
 70
     1
  9
$TREEDEPTH
 70
  3020
  9
$CMLSTYLE
  2
Standard
  9
$CMLJUST
 70
     0
  9
$CMLSCALE
 40
1.0
  9
$PROXYGRAPHICS
 70
     1
  9
$MEASUREMENT
 70
     0
  9
$CELWEIGHT
370
    -1
  9
$ENDCAPS
280
     0
  9
$JOINSTYLE
280
     0
  9
$LWDISPLAY
290
     0
  9
$INSUNITS
 70
     1
  9
$HYPERLINKBASE
  1

  9
$STYLESHEET
  1

  9
$XEDIT
290
     0
  9
$CEPSNTYPE
380
     0
  9
$PSTYLEMODE
290
     0
  9
$FINGERPRINTGUID
  2
{8BAE0D3F-6380-4E3D-B0D1-267E31F469C1}
  9
$VERSIONGUID
  2
{6F1AD05E-3764-4268-ADD0-261F181DCA83}
  9
$EXTNAMES
290
     1
  9
$PSVPSCALE
 40
0.0
  9
$OLESTARTUP
290
     0
  9
$SORTENTS
280
   127
  9
$INDEXCTL
280
     0
  9
$HIDETEXT
280
     1
  9
$XCLIPFRAME
290
     0
  9
$HALOGAP
280
     0
  9
$OBSCOLOR
 70
   257
  9
$OBSLTYPE
280
     0
  9
$INTERSECTIONDISPLAY
280
     0
  9
$INTERSECTIONCOLOR
 70
   257
  9
$DIMASSOC
280
     2
  9
$PROJECTNAME
  1

  0
ENDSEC
  0
SECTION
  2
CLASSES
  0
CLASS
  1
ACDBDICTIONARYWDFLT
  2
AcDbDictionaryWithDefault
  3
ObjectDBX Classes
 90
        0
 91
        3
280
     0
281
     0
  0
CLASS
  1
ACDBPLACEHOLDER
  2
AcDbPlaceHolder
  3
ObjectDBX Classes
 90
        0
 91
        1
280
     0
281
     0
  0
CLASS
  1
LAYOUT
  2
AcDbLayout
  3
ObjectDBX Classes
 90
        0
 91
        1
280
     0
281
     0
  0
CLASS
  1
DICTIONARYVAR
  2
AcDbDictionaryVar
  3
ObjectDBX Classes
 90
        0
 91
        3
280
     0
281
     0
  0
CLASS
  1
TABLESTYLE
  2
AcDbTableStyle
  3
ObjectDBX Classes
 90
     2047
 91
        3
280
     0
281
     0
  0
ENDSEC
  0
SECTION
  2
TABLES
  0
TABLE
  2
VPORT
  5
8
330
0
100
AcDbSymbolTable
 70
     2
  0
VPORT
  5
97
330
8
100
AcDbSymbolTableRecord
100
AcDbViewportTableRecord
  2
*Active
 70
     0
 10
0.0
 20
0.0
 11
1.0
 21
1.0
 12
33.09570400069607
 22
17.25321193995849
 13
0.0
 23
0.0
 14
0.5
 24
0.5
 15
0.5
 25
0.5
 16
0.0
 26
0.0
 36
1.0
 17
0.0
 27
0.0
 37
0.0
 40
49.63021355814145
 41
2.031468531468532
 42
50.0
 43
0.0
 44
0.0
 50
0.0
 51
0.0
 71
    16
 72
  1000
 73
     1
 74
     1
 75
     0
 76
     0
 77
     0
 78
     0
281
     0
 65
     0
110
0.0
120
0.0
130
0.0
111
1.0
121
0.0
131
0.0
112
0.0
122
1.0
132
0.0
 79
     0
146
0.0
  0
ENDTAB
  0
TABLE
  2
LTYPE
  5
5
330
0
100
AcDbSymbolTable
 70
     1
  0
LTYPE
  5
14
330
5
100
AcDbSymbolTableRecord
100
AcDbLinetypeTableRecord
  2
ByBlock
 70
     0
  3

 72
    65
 73
     0
 40
0.0
  0
LTYPE
  5
15
330
5
100
AcDbSymbolTableRecord
100
AcDbLinetypeTableRecord
  2
ByLayer
 70
     0
  3

 72
    65
 73
     0
 40
0.0
  0
LTYPE
  5
16
330
5
100
AcDbSymbolTableRecord
100
AcDbLinetypeTableRecord
  2
Continuous
 70
     0
  3
Solid line
 72
    65
 73
     0
 40
0.0
  0
ENDTAB
  0
TABLE
  2
LAYER
  5
2
330
0
100
AcDbSymbolTable
 70
     2
  0
LAYER
  5
10
330
2
100
AcDbSymbolTableRecord
100
AcDbLayerTableRecord
  2
0
 70
     0
 62
     7
  6
Continuous
370
    -3
390
F
  0
LAYER
  5
EB
330
2
100
AcDbSymbolTableRecord
100
AcDbLayerTableRecord
  2
DEFPOINTS
 70
     0
 62
     7
  6
Continuous
290
     0
370
    -3
390
F
  0
ENDTAB
  0
TABLE
  2
STYLE
  5
3
330
0
100
AcDbSymbolTable
 70
     1
  0
STYLE
  5
11
330
3
100
AcDbSymbolTableRecord
100
AcDbTextStyleTableRecord
  2
Standard
 70
     0
 40
0.0
 41
1.0
 50
0.0
 71
     0
 42
0.2
  3
txt
  4

  0
ENDTAB
  0
TABLE
  2
VIEW
  5
6
330
0
100
AcDbSymbolTable
 70
     0
  0
ENDTAB
  0
TABLE
  2
UCS
  5
7
330
0
100
AcDbSymbolTable
 70
     0
  0
ENDTAB
  0
TABLE
  2
APPID
  5
9
330
0
100
AcDbSymbolTable
 70
     1
  0
APPID
  5
12
330
9
100
AcDbSymbolTableRecord
100
AcDbRegAppTableRecord
  2
ACAD
 70
     0
  0
ENDTAB
  0
TABLE
  2
DIMSTYLE
  5
A
330
0
100
AcDbSymbolTable
 70
     1
100
AcDbDimStyleTable
  0
DIMSTYLE
105
27
330
A
100
AcDbSymbolTableRecord
100
AcDbDimStyleTableRecord
  2
Standard
 70
     0
340
11
  0
ENDTAB
  0
TABLE
  2
BLOCK_RECORD
  5
1
330
0
100
AcDbSymbolTable
 70
     1
  0
BLOCK_RECORD
  5
1F
330
1
100
AcDbSymbolTableRecord
100
AcDbBlockTableRecord
  2
*Model_Space
340
22
  0
BLOCK_RECORD
  5
73
330
1
100
AcDbSymbolTableRecord
100
AcDbBlockTableRecord
  2
*Paper_Space
340
74
  0
BLOCK_RECORD
  5
9B
330
1
100
AcDbSymbolTableRecord
100
AcDbBlockTableRecord
  2
*Paper_Space0
340
9C
  0
ENDTAB
  0
ENDSEC
  0
SECTION
  2
BLOCKS
  0
BLOCK
  5
20
330
1F
100
AcDbEntity
  8
0
100
AcDbBlockBegin
  2
*Model_Space
 70
     0
 71
     0
 10
0.0
 20
0.0
 30
0.0
  3
*Model_Space
  1

  0
ENDBLK
  5
21
330
1F
100
AcDbEntity
  8
0
100
AcDbBlockEnd
  0
BLOCK
  5
75
330
73
100
AcDbEntity
 67
     1
  8
0
100
AcDbBlockBegin
  2
*Paper_Space
 70
     0
 71
     0
 10
0.0
 20
0.0
 30
0.0
  3
*Paper_Space
  1

  0
ENDBLK
  5
76
330
73
100
AcDbEntity
 67
     1
  8
0
100
AcDbBlockEnd
  0
BLOCK
  5
1C1
330
9B
100
AcDbEntity
  8
0
100
AcDbBlockBegin
  2
*Paper_Space0
 70
     0
 71
     0
 10
0.0
 20
0.0
 30
0.0
  3
*Paper_Space0
  1

  0
ENDBLK
  5
1C2
330
9B
100
AcDbEntity
  8
0
100
AcDbBlockEnd
  0
ENDSEC
  0
SECTION
  2
ENTITIES
  0
LINE
  5
9D
330
1F
100
AcDbEntity
  8
0
  6
Continuous
 62
     7
370
    15
100
AcDbLine
 10
18.69472171309805
 20
16.54495542764929
 30
0.0
 11
18.69472171309805
 21
10.78919733164926
 31
0.0
  0
LINE
  5
9E
330
1F
100
AcDbEntity
  8
0
  6
Continuous
 62
     7
370
    15
100
AcDbLine
 10
18.69472171309805
 20
10.78919733164926
 30
0.0
 11
23.9419403978896
 21
10.78919733164926
 31
0.0
  0
LINE
  5
9F
330
1F
100
AcDbEntity
  8
0
  6
Continuous
 62
     7
370
    15
100
AcDbLine
 10
23.9419403978896
 20
10.78919733164926
 30
0.0
 11
23.94194039789003
 21
8.91430286358139
 31
0.0
  0
LINE
  5
A0
330
1F
100
AcDbEntity
  8
0
  6
Continuous
 62
     7
370
    15
100
AcDbLine
 10
23.94194039789003
 20
8.91430286358139
 30
0.0
 11
28.69471391395788
 21
13.66707637964924
 31
0.0
  0
LINE
  5
A1
330
1F
100
AcDbEntity
  8
0
  6
Continuous
 62
     7
370
    15
100
AcDbLine
 10
28.69471391395788
 20
13.66707637964924
 30
0.0
 11
23.9419403978896
 21
18.41984989571765
 31
0.0
  0
LINE
  5
A2
330
1F
100
AcDbEntity
  8
0
  6
Continuous
 62
     7
370
    15
100
AcDbLine
 10
23.9419403978896
 20
18.41984989571765
 30
0.0
 11
23.9419403978896
 21
16.54495542764926
 31
0.0
  0
LINE
  5
A3
330
1F
100
AcDbEntity
  8
0
  6
Continuous
 62
     7
370
    15
100
AcDbLine
 10
23.9419403978896
 20
16.54495542764926
 30
0.0
 11
18.69472171309805
 21
16.54495542764929
 31
0.0
  0
LINE
  5
FB
330
1F
100
AcDbEntity
  8
0
100
AcDbLine
 10
23.94194039789002
 20
8.95127663673527
 30
0.0
 11
28.67622702738093
 21
13.68556326622618
 31
0.0
  0
LINE
  5
FC
330
1F
100
AcDbEntity
  8
0
100
AcDbLine
 10
23.94194039789
 20
9.02622995554103
 30
0.0
 11
28.63875036797805
 21
13.72303992562907
 31
0.0
  0
LINE
  5
FD
330
1F
100
AcDbEntity
  8
0
100
AcDbLine
 10
23.94194039788999
 20
9.101183274346784
 30
0.0
 11
28.60127370857516
 21
13.76051658503195
 31
0.0
  0
LINE
  5
FE
330
1F
100
AcDbEntity
  8
0
100
AcDbLine
 10
23.94194039788997
 20
9.176136593152542
 30
0.0
 11
28.56379704917227
 21
13.79799324443484
 31
0.0
  0
LINE
  5
FF
330
1F
100
AcDbEntity
  8
0
100
AcDbLine
 10
23.94194039788995
 20
9.251089911958298
 30
0.0
 11
28.52632038976939
 21
13.83546990383773
 31
0.0
  0
LINE
  5
100
330
1F
100
AcDbEntity
  8
0
100
AcDbLine
 10
23.94194039788994
 20
9.326043230764055
 30
0.0
 11
28.4888437303665
 21
13.87294656324062
 31
0.0
  0
LINE
  5
101
330
1F
100
AcDbEntity
  8
0
100
AcDbLine
 10
23.94194039788992
 20
9.400996549569811
 30
0.0
 11
28.45136707096361
 21
13.91042322264351
 31
0.0
  0
LINE
  5
102
330
1F
100
AcDbEntity
  8
0
100
AcDbLine
 10
23.9419403978899
 20
9.475949868375565
 30
0.0
 11
28.41389041156073
 21
13.94789988204639
 31
0.0
  0
LINE
  5
103
330
1F
100
AcDbEntity
  8
0
100
AcDbLine
 10
23.94194039788988
 20
9.550903187181323
 30
0.0
 11
28.37641375215784
 21
13.98537654144928
 31
0.0
  0
LINE
  5
104
330
1F
100
AcDbEntity
  8
0
100
AcDbLine
 10
23.94194039788987
 20
9.625856505987082
 30
0.0
 11
28.33893709275495
 21
14.02285320085217
 31
0.0
  0
LINE
  5
105
330
1F
100
AcDbEntity
  8
0
100
AcDbLine
 10
23.94194039788985
 20
9.700809824792836
 30
0.0
 11
28.30146043335207
 21
14.06032986025505
 31
0.0
  0
LINE
  5
106
330
1F
100
AcDbEntity
  8
0
100
AcDbLine
 10
23.94194039788983
 20
9.775763143598594
 30
0.0
 11
28.26398377394919
 21
14.09780651965795
 31
0.0
  0
LINE
  5
107
330
1F
100
AcDbEntity
  8
0
100
AcDbLine
 10
23.94194039788982
 20
9.85071646240435
 30
0.0
 11
28.2265071145463
 21
14.13528317906083
 31
0.0
  0
LINE
  5
108
330
1F
100
AcDbEntity
  8
0
100
AcDbLine
 10
23.9419403978898
 20
9.925669781210107
 30
0.0
 11
28.18903045514341
 21
14.17275983846372
 31
0.0
  0
LINE
  5
109
330
1F
100
AcDbEntity
  8
0
100
AcDbLine
 10
23.94194039788978
 20
10.00062310001586
 30
0.0
 11
28.15155379574053
 21
14.21023649786661
 31
0.0
  0
LINE
  5
10A
330
1F
100
AcDbEntity
  8
0
100
AcDbLine
 10
23.94194039788977
 20
10.07557641882162
 30
0.0
 11
28.11407713633764
 21
14.24771315726949
 31
0.0
  0
LINE
  5
10B
330
1F
100
AcDbEntity
  8
0
100
AcDbLine
 10
23.94194039788975
 20
10.15052973762738
 30
0.0
 11
28.07660047693475
 21
14.28518981667238
 31
0.0
  0
LINE
  5
10C
330
1F
100
AcDbEntity
  8
0
100
AcDbLine
 10
23.94194039788973
 20
10.22548305643313
 30
0.0
 11
28.03912381753187
 21
14.32266647607527
 31
0.0
  0
LINE
  5
10D
330
1F
100
AcDbEntity
  8
0
100
AcDbLine
 10
23.94194039788971
 20
10.30043637523889
 30
0.0
 11
28.00164715812898
 21
14.36014313547815
 31
0.0
  0
LINE
  5
10E
330
1F
100
AcDbEntity
  8
0
100
AcDbLine
 10
23.9419403978897
 20
10.37538969404465
 30
0.0
 11
27.96417049872609
 21
14.39761979488104
 31
0.0
  0
LINE
  5
10F
330
1F
100
AcDbEntity
  8
0
100
AcDbLine
 10
23.94194039788968
 20
10.4503430128504
 30
0.0
 11
27.9266938393232
 21
14.43509645428393
 31
0.0
  0
LINE
  5
110
330
1F
100
AcDbEntity
  8
0
100
AcDbLine
 10
23.94194039788966
 20
10.52529633165616
 30
0.0
 11
27.88921717992032
 21
14.47257311368682
 31
0.0
  0
LINE
  5
111
330
1F
100
AcDbEntity
  8
0
100
AcDbLine
 10
23.94194039788965
 20
10.60024965046192
 30
0.0
 11
27.85174052051743
 21
14.5100497730897
 31
0.0
  0
LINE
  5
112
330
1F
100
AcDbEntity
  8
0
100
AcDbLine
 10
23.94194039788963
 20
10.67520296926767
 30
0.0
 11
27.81426386111455
 21
14.54752643249259
 31
0.0
  0
LINE
  5
113
330
1F
100
AcDbEntity
  8
0
100
AcDbLine
 10
23.94194039788961
 20
10.75015628807343
 30
0.0
 11
27.77678720171166
 21
14.58500309189548
 31
0.0
  0
LINE
  5
114
330
1F
100
AcDbEntity
  8
0
100
AcDbLine
 10
23.90602812265966
 20
10.78919733164925
 30
0.0
 11
27.73931054230878
 21
14.62247975129837
 31
0.0
  0
LINE
  5
115
330
1F
100
AcDbEntity
  8
0
100
AcDbLine
 10
23.83107480385389
 20
10.78919733164925
 30
0.0
 11
27.70183388290589
 21
14.65995641070126
 31
0.0
  0
LINE
  5
116
330
1F
100
AcDbEntity
  8
0
100
AcDbLine
 10
23.75612148504812
 20
10.78919733164926
 30
0.0
 11
27.664357223503
 21
14.69743307010414
 31
0.0
  0
LINE
  5
117
330
1F
100
AcDbEntity
  8
0
100
AcDbLine
 10
23.68116816624234
 20
10.78919733164925
 30
0.0
 11
27.62688056410012
 21
14.73490972950703
 31
0.0
  0
LINE
  5
118
330
1F
100
AcDbEntity
  8
0
100
AcDbLine
 10
23.60621484743657
 20
10.78919733164926
 30
0.0
 11
27.58940390469723
 21
14.77238638890992
 31
0.0
  0
LINE
  5
119
330
1F
100
AcDbEntity
  8
0
100
AcDbLine
 10
23.5312615286308
 20
10.78919733164926
 30
0.0
 11
27.55192724529434
 21
14.8098630483128
 31
0.0
  0
LINE
  5
11A
330
1F
100
AcDbEntity
  8
0
100
AcDbLine
 10
23.45630820982502
 20
10.78919733164926
 30
0.0
 11
27.51445058589146
 21
14.84733970771569
 31
0.0
  0
LINE
  5
11B
330
1F
100
AcDbEntity
  8
0
100
AcDbLine
 10
23.38135489101925
 20
10.78919733164926
 30
0.0
 11
27.47697392648857
 21
14.88481636711858
 31
0.0
  0
LINE
  5
11C
330
1F
100
AcDbEntity
  8
0
100
AcDbLine
 10
23.30640157221347
 20
10.78919733164926
 30
0.0
 11
27.43949726708568
 21
14.92229302652146
 31
0.0
  0
LINE
  5
11D
330
1F
100
AcDbEntity
  8
0
100
AcDbLine
 10
23.2314482534077
 20
10.78919733164926
 30
0.0
 11
27.4020206076828
 21
14.95976968592435
 31
0.0
  0
LINE
  5
11E
330
1F
100
AcDbEntity
  8
0
100
AcDbLine
 10
23.15649493460193
 20
10.78919733164925
 30
0.0
 11
27.36454394827992
 21
14.99724634532724
 31
0.0
  0
LINE
  5
11F
330
1F
100
AcDbEntity
  8
0
100
AcDbLine
 10
23.08154161579616
 20
10.78919733164926
 30
0.0
 11
27.32706728887703
 21
15.03472300473013
 31
0.0
  0
LINE
  5
120
330
1F
100
AcDbEntity
  8
0
100
AcDbLine
 10
23.00658829699038
 20
10.78919733164925
 30
0.0
 11
27.28959062947414
 21
15.07219966413301
 31
0.0
  0
LINE
  5
121
330
1F
100
AcDbEntity
  8
0
100
AcDbLine
 10
22.93163497818461
 20
10.78919733164926
 30
0.0
 11
27.25211397007125
 21
15.1096763235359
 31
0.0
  0
LINE
  5
122
330
1F
100
AcDbEntity
  8
0
100
AcDbLine
 10
22.85668165937883
 20
10.78919733164926
 30
0.0
 11
27.21463731066837
 21
15.14715298293879
 31
0.0
  0
LINE
  5
123
330
1F
100
AcDbEntity
  8
0
100
AcDbLine
 10
22.78172834057306
 20
10.78919733164925
 30
0.0
 11
27.17716065126548
 21
15.18462964234168
 31
0.0
  0
LINE
  5
124
330
1F
100
AcDbEntity
  8
0
100
AcDbLine
 10
22.70677502176729
 20
10.78919733164926
 30
0.0
 11
27.13968399186259
 21
15.22210630174456
 31
0.0
  0
LINE
  5
125
330
1F
100
AcDbEntity
  8
0
100
AcDbLine
 10
22.63182170296151
 20
10.78919733164926
 30
0.0
 11
27.10220733245971
 21
15.25958296114745
 31
0.0
  0
LINE
  5
126
330
1F
100
AcDbEntity
  8
0
100
AcDbLine
 10
22.55686838415574
 20
10.78919733164926
 30
0.0
 11
27.06473067305682
 21
15.29705962055034
 31
0.0
  0
LINE
  5
127
330
1F
100
AcDbEntity
  8
0
100
AcDbLine
 10
22.48191506534997
 20
10.78919733164926
 30
0.0
 11
27.02725401365394
 21
15.33453627995322
 31
0.0
  0
LINE
  5
128
330
1F
100
AcDbEntity
  8
0
100
AcDbLine
 10
22.40696174654419
 20
10.78919733164925
 30
0.0
 11
26.98977735425105
 21
15.37201293935611
 31
0.0
  0
LINE
  5
129
330
1F
100
AcDbEntity
  8
0
100
AcDbLine
 10
22.33200842773842
 20
10.78919733164926
 30
0.0
 11
26.95230069484816
 21
15.409489598759
 31
0.0
  0
LINE
  5
12A
330
1F
100
AcDbEntity
  8
0
100
AcDbLine
 10
22.25705510893265
 20
10.78919733164926
 30
0.0
 11
26.91482403544528
 21
15.44696625816189
 31
0.0
  0
LINE
  5
12B
330
1F
100
AcDbEntity
  8
0
100
AcDbLine
 10
22.18210179012687
 20
10.78919733164926
 30
0.0
 11
26.87734737604239
 21
15.48444291756478
 31
0.0
  0
LINE
  5
12C
330
1F
100
AcDbEntity
  8
0
100
AcDbLine
 10
22.1071484713211
 20
10.78919733164926
 30
0.0
 11
26.83987071663951
 21
15.52191957696766
 31
0.0
  0
LINE
  5
12D
330
1F
100
AcDbEntity
  8
0
100
AcDbLine
 10
22.03219515251532
 20
10.78919733164926
 30
0.0
 11
26.80239405723662
 21
15.55939623637055
 31
0.0
  0
LINE
  5
12E
330
1F
100
AcDbEntity
  8
0
100
AcDbLine
 10
21.95724183370955
 20
10.78919733164926
 30
0.0
 11
26.76491739783373
 21
15.59687289577344
 31
0.0
  0
LINE
  5
12F
330
1F
100
AcDbEntity
  8
0
100
AcDbLine
 10
21.88228851490378
 20
10.78919733164926
 30
0.0
 11
26.72744073843085
 21
15.63434955517632
 31
0.0
  0
LINE
  5
130
330
1F
100
AcDbEntity
  8
0
100
AcDbLine
 10
21.807335196098
 20
10.78919733164925
 30
0.0
 11
26.68996407902796
 21
15.67182621457921
 31
0.0
  0
LINE
  5
131
330
1F
100
AcDbEntity
  8
0
100
AcDbLine
 10
21.73238187729223
 20
10.78919733164926
 30
0.0
 11
26.65248741962507
 21
15.7093028739821
 31
0.0
  0
LINE
  5
132
330
1F
100
AcDbEntity
  8
0
100
AcDbLine
 10
21.65742855848646
 20
10.78919733164926
 30
0.0
 11
26.61501076022219
 21
15.74677953338499
 31
0.0
  0
LINE
  5
133
330
1F
100
AcDbEntity
  8
0
100
AcDbLine
 10
21.58247523968068
 20
10.78919733164926
 30
0.0
 11
26.5775341008193
 21
15.78425619278788
 31
0.0
  0
LINE
  5
134
330
1F
100
AcDbEntity
  8
0
100
AcDbLine
 10
21.50752192087491
 20
10.78919733164926
 30
0.0
 11
26.54005744141642
 21
15.82173285219076
 31
0.0
  0
LINE
  5
135
330
1F
100
AcDbEntity
  8
0
100
AcDbLine
 10
21.43256860206914
 20
10.78919733164926
 30
0.0
 11
26.50258078201353
 21
15.85920951159365
 31
0.0
  0
LINE
  5
136
330
1F
100
AcDbEntity
  8
0
100
AcDbLine
 10
21.35761528326336
 20
10.78919733164925
 30
0.0
 11
26.46510412261064
 21
15.89668617099654
 31
0.0
  0
LINE
  5
137
330
1F
100
AcDbEntity
  8
0
100
AcDbLine
 10
21.28266196445759
 20
10.78919733164926
 30
0.0
 11
26.42762746320776
 21
15.93416283039942
 31
0.0
  0
LINE
  5
138
330
1F
100
AcDbEntity
  8
0
100
AcDbLine
 10
21.20770864565181
 20
10.78919733164926
 30
0.0
 11
26.39015080380487
 21
15.97163948980231
 31
0.0
  0
LINE
  5
139
330
1F
100
AcDbEntity
  8
0
100
AcDbLine
 10
21.13275532684604
 20
10.78919733164925
 30
0.0
 11
26.35267414440199
 21
16.0091161492052
 31
0.0
  0
LINE
  5
13A
330
1F
100
AcDbEntity
  8
0
100
AcDbLine
 10
21.05780200804027
 20
10.78919733164926
 30
0.0
 11
26.3151974849991
 21
16.04659280860809
 31
0.0
  0
LINE
  5
13B
330
1F
100
AcDbEntity
  8
0
100
AcDbLine
 10
20.98284868923449
 20
10.78919733164926
 30
0.0
 11
26.27772082559621
 21
16.08406946801097
 31
0.0
  0
LINE
  5
13C
330
1F
100
AcDbEntity
  8
0
100
AcDbLine
 10
20.90789537042872
 20
10.78919733164926
 30
0.0
 11
26.24024416619332
 21
16.12154612741386
 31
0.0
  0
LINE
  5
13D
330
1F
100
AcDbEntity
  8
0
100
AcDbLine
 10
20.83294205162295
 20
10.78919733164926
 30
0.0
 11
26.20276750679044
 21
16.15902278681675
 31
0.0
  0
LINE
  5
13E
330
1F
100
AcDbEntity
  8
0
100
AcDbLine
 10
20.75798873281717
 20
10.78919733164926
 30
0.0
 11
26.16529084738755
 21
16.19649944621963
 31
0.0
  0
LINE
  5
13F
330
1F
100
AcDbEntity
  8
0
100
AcDbLine
 10
20.6830354140114
 20
10.78919733164926
 30
0.0
 11
26.12781418798467
 21
16.23397610562252
 31
0.0
  0
LINE
  5
140
330
1F
100
AcDbEntity
  8
0
100
AcDbLine
 10
20.60808209520562
 20
10.78919733164925
 30
0.0
 11
26.09033752858178
 21
16.27145276502541
 31
0.0
  0
LINE
  5
141
330
1F
100
AcDbEntity
  8
0
100
AcDbLine
 10
20.53312877639985
 20
10.78919733164926
 30
0.0
 11
26.05286086917889
 21
16.3089294244283
 31
0.0
  0
LINE
  5
142
330
1F
100
AcDbEntity
  8
0
100
AcDbLine
 10
20.45817545759408
 20
10.78919733164926
 30
0.0
 11
26.01538420977601
 21
16.34640608383119
 31
0.0
  0
LINE
  5
143
330
1F
100
AcDbEntity
  8
0
100
AcDbLine
 10
20.38322213878831
 20
10.78919733164926
 30
0.0
 11
25.97790755037312
 21
16.38388274323407
 31
0.0
  0
LINE
  5
144
330
1F
100
AcDbEntity
  8
0
100
AcDbLine
 10
20.30826881998253
 20
10.78919733164925
 30
0.0
 11
25.94043089097024
 21
16.42135940263696
 31
0.0
  0
LINE
  5
145
330
1F
100
AcDbEntity
  8
0
100
AcDbLine
 10
20.23331550117676
 20
10.78919733164926
 30
0.0
 11
25.90295423156735
 21
16.45883606203985
 31
0.0
  0
LINE
  5
146
330
1F
100
AcDbEntity
  8
0
100
AcDbLine
 10
20.15836218237098
 20
10.78919733164925
 30
0.0
 11
25.86547757216447
 21
16.49631272144274
 31
0.0
  0
LINE
  5
147
330
1F
100
AcDbEntity
  8
0
100
AcDbLine
 10
20.08340886356521
 20
10.78919733164926
 30
0.0
 11
25.82800091276158
 21
16.53378938084562
 31
0.0
  0
LINE
  5
148
330
1F
100
AcDbEntity
  8
0
100
AcDbLine
 10
20.00845554475944
 20
10.78919733164926
 30
0.0
 11
25.79052425335869
 21
16.57126604024851
 31
0.0
  0
LINE
  5
149
330
1F
100
AcDbEntity
  8
0
100
AcDbLine
 10
19.93350222595366
 20
10.78919733164925
 30
0.0
 11
25.75304759395581
 21
16.6087426996514
 31
0.0
  0
LINE
  5
14A
330
1F
100
AcDbEntity
  8
0
100
AcDbLine
 10
19.85854890714789
 20
10.78919733164925
 30
0.0
 11
25.71557093455292
 21
16.64621935905429
 31
0.0
  0
LINE
  5
14B
330
1F
100
AcDbEntity
  8
0
100
AcDbLine
 10
19.78359558834212
 20
10.78919733164926
 30
0.0
 11
25.67809427515003
 21
16.68369601845717
 31
0.0
  0
LINE
  5
14C
330
1F
100
AcDbEntity
  8
0
100
AcDbLine
 10
19.70864226953634
 20
10.78919733164925
 30
0.0
 11
25.64061761574715
 21
16.72117267786006
 31
0.0
  0
LINE
  5
14D
330
1F
100
AcDbEntity
  8
0
100
AcDbLine
 10
19.63368895073057
 20
10.78919733164925
 30
0.0
 11
25.60314095634426
 21
16.75864933726295
 31
0.0
  0
LINE
  5
14E
330
1F
100
AcDbEntity
  8
0
100
AcDbLine
 10
19.55873563192479
 20
10.78919733164926
 30
0.0
 11
25.56566429694137
 21
16.79612599666583
 31
0.0
  0
LINE
  5
14F
330
1F
100
AcDbEntity
  8
0
100
AcDbLine
 10
19.48378231311902
 20
10.78919733164926
 30
0.0
 11
25.52818763753849
 21
16.83360265606872
 31
0.0
  0
LINE
  5
150
330
1F
100
AcDbEntity
  8
0
100
AcDbLine
 10
19.40882899431325
 20
10.78919733164926
 30
0.0
 11
25.4907109781356
 21
16.87107931547161
 31
0.0
  0
LINE
  5
151
330
1F
100
AcDbEntity
  8
0
100
AcDbLine
 10
19.33387567550747
 20
10.78919733164926
 30
0.0
 11
25.45323431873271
 21
16.9085559748745
 31
0.0
  0
LINE
  5
152
330
1F
100
AcDbEntity
  8
0
100
AcDbLine
 10
19.2589223567017
 20
10.78919733164926
 30
0.0
 11
25.41575765932983
 21
16.94603263427738
 31
0.0
  0
LINE
  5
153
330
1F
100
AcDbEntity
  8
0
100
AcDbLine
 10
19.18396903789593
 20
10.78919733164926
 30
0.0
 11
25.37828099992694
 21
16.98350929368027
 31
0.0
  0
LINE
  5
154
330
1F
100
AcDbEntity
  8
0
100
AcDbLine
 10
19.10901571909015
 20
10.78919733164926
 30
0.0
 11
25.34080434052406
 21
17.02098595308316
 31
0.0
  0
LINE
  5
155
330
1F
100
AcDbEntity
  8
0
100
AcDbLine
 10
19.03406240028438
 20
10.78919733164926
 30
0.0
 11
25.30332768112117
 21
17.05846261248605
 31
0.0
  0
LINE
  5
156
330
1F
100
AcDbEntity
  8
0
100
AcDbLine
 10
18.9591090814786
 20
10.78919733164925
 30
0.0
 11
25.26585102171828
 21
17.09593927188893
 31
0.0
  0
LINE
  5
157
330
1F
100
AcDbEntity
  8
0
100
AcDbLine
 10
18.88415576267283
 20
10.78919733164925
 30
0.0
 11
25.2283743623154
 21
17.13341593129182
 31
0.0
  0
LINE
  5
158
330
1F
100
AcDbEntity
  8
0
100
AcDbLine
 10
18.80920244386706
 20
10.78919733164926
 30
0.0
 11
25.19089770291251
 21
17.17089259069471
 31
0.0
  0
LINE
  5
159
330
1F
100
AcDbEntity
  8
0
100
AcDbLine
 10
18.73424912506129
 20
10.78919733164926
 30
0.0
 11
25.15342104350963
 21
17.2083692500976
 31
0.0
  0
LINE
  5
15A
330
1F
100
AcDbEntity
  8
0
100
AcDbLine
 10
18.69472171309805
 20
10.8246232384918
 30
0.0
 11
25.11594438410674
 21
17.24584590950048
 31
0.0
  0
LINE
  5
15B
330
1F
100
AcDbEntity
  8
0
100
AcDbLine
 10
18.69472171309805
 20
10.89957655729757
 30
0.0
 11
25.07846772470385
 21
17.28332256890337
 31
0.0
  0
LINE
  5
15C
330
1F
100
AcDbEntity
  8
0
100
AcDbLine
 10
18.69472171309805
 20
10.97452987610334
 30
0.0
 11
25.04099106530097
 21
17.32079922830626
 31
0.0
  0
LINE
  5
15D
330
1F
100
AcDbEntity
  8
0
100
AcDbLine
 10
18.69472171309806
 20
11.04948319490912
 30
0.0
 11
25.00351440589808
 21
17.35827588770914
 31
0.0
  0
LINE
  5
15E
330
1F
100
AcDbEntity
  8
0
100
AcDbLine
 10
18.69472171309805
 20
11.12443651371489
 30
0.0
 11
24.9660377464952
 21
17.39575254711203
 31
0.0
  0
LINE
  5
15F
330
1F
100
AcDbEntity
  8
0
100
AcDbLine
 10
18.69472171309805
 20
11.19938983252067
 30
0.0
 11
24.92856108709231
 21
17.43322920651492
 31
0.0
  0
LINE
  5
160
330
1F
100
AcDbEntity
  8
0
100
AcDbLine
 10
18.69472171309805
 20
11.27434315132644
 30
0.0
 11
24.89108442768942
 21
17.47070586591781
 31
0.0
  0
LINE
  5
161
330
1F
100
AcDbEntity
  8
0
100
AcDbLine
 10
18.69472171309805
 20
11.34929647013221
 30
0.0
 11
23.8903806706151
 21
16.54495542764926
 31
0.0
  0
LINE
  5
162
330
1F
100
AcDbEntity
  8
0
100
AcDbLine
 10
23.9419403978896
 20
16.59651515492376
 30
0.0
 11
24.85360776828654
 21
17.5081825253207
 31
0.0
  0
LINE
  5
163
330
1F
100
AcDbEntity
  8
0
100
AcDbLine
 10
18.69472171309805
 20
11.42424978893799
 30
0.0
 11
23.81542735180933
 21
16.54495542764926
 31
0.0
  0
LINE
  5
164
330
1F
100
AcDbEntity
  8
0
100
AcDbLine
 10
23.9419403978896
 20
16.67146847372953
 30
0.0
 11
24.81613110888365
 21
17.54565918472358
 31
0.0
  0
LINE
  5
165
330
1F
100
AcDbEntity
  8
0
100
AcDbLine
 10
18.69472171309805
 20
11.49920310774376
 30
0.0
 11
23.74047403300355
 21
16.54495542764926
 31
0.0
  0
LINE
  5
166
330
1F
100
AcDbEntity
  8
0
100
AcDbLine
 10
23.9419403978896
 20
16.74642179253531
 30
0.0
 11
24.77865444948076
 21
17.58313584412647
 31
0.0
  0
LINE
  5
167
330
1F
100
AcDbEntity
  8
0
100
AcDbLine
 10
18.69472171309805
 20
11.57415642654954
 30
0.0
 11
23.66552071419778
 21
16.54495542764926
 31
0.0
  0
LINE
  5
168
330
1F
100
AcDbEntity
  8
0
100
AcDbLine
 10
23.9419403978896
 20
16.82137511134108
 30
0.0
 11
24.74117779007788
 21
17.62061250352935
 31
0.0
  0
LINE
  5
169
330
1F
100
AcDbEntity
  8
0
100
AcDbLine
 10
18.69472171309805
 20
11.64910974535531
 30
0.0
 11
23.59056739539201
 21
16.54495542764926
 31
0.0
  0
LINE
  5
16A
330
1F
100
AcDbEntity
  8
0
100
AcDbLine
 10
23.9419403978896
 20
16.89632843014686
 30
0.0
 11
24.70370113067499
 21
17.65808916293225
 31
0.0
  0
LINE
  5
16B
330
1F
100
AcDbEntity
  8
0
100
AcDbLine
 10
18.69472171309805
 20
11.72406306416108
 30
0.0
 11
23.51561407658623
 21
16.54495542764926
 31
0.0
  0
LINE
  5
16C
330
1F
100
AcDbEntity
  8
0
100
AcDbLine
 10
23.9419403978896
 20
16.97128174895263
 30
0.0
 11
24.66622447127211
 21
17.69556582233513
 31
0.0
  0
LINE
  5
16D
330
1F
100
AcDbEntity
  8
0
100
AcDbLine
 10
18.69472171309805
 20
11.79901638296685
 30
0.0
 11
23.44066075778046
 21
16.54495542764926
 31
0.0
  0
LINE
  5
16E
330
1F
100
AcDbEntity
  8
0
100
AcDbLine
 10
23.9419403978896
 20
17.0462350677584
 30
0.0
 11
24.62874781186922
 21
17.73304248173802
 31
0.0
  0
LINE
  5
16F
330
1F
100
AcDbEntity
  8
0
100
AcDbLine
 10
18.69472171309805
 20
11.87396970177263
 30
0.0
 11
23.36570743897468
 21
16.54495542764926
 31
0.0
  0
LINE
  5
170
330
1F
100
AcDbEntity
  8
0
100
AcDbLine
 10
23.9419403978896
 20
17.12118838656417
 30
0.0
 11
24.59127115246633
 21
17.77051914114091
 31
0.0
  0
LINE
  5
171
330
1F
100
AcDbEntity
  8
0
100
AcDbLine
 10
18.69472171309805
 20
11.9489230205784
 30
0.0
 11
23.29075412016891
 21
16.54495542764926
 31
0.0
  0
LINE
  5
172
330
1F
100
AcDbEntity
  8
0
100
AcDbLine
 10
23.9419403978896
 20
17.19614170536995
 30
0.0
 11
24.55379449306345
 21
17.8079958005438
 31
0.0
  0
LINE
  5
173
330
1F
100
AcDbEntity
  8
0
100
AcDbLine
 10
18.69472171309805
 20
12.02387633938418
 30
0.0
 11
23.21580080136314
 21
16.54495542764926
 31
0.0
  0
LINE
  5
174
330
1F
100
AcDbEntity
  8
0
100
AcDbLine
 10
23.9419403978896
 20
17.27109502417573
 30
0.0
 11
24.51631783366056
 21
17.84547245994668
 31
0.0
  0
LINE
  5
175
330
1F
100
AcDbEntity
  8
0
100
AcDbLine
 10
18.69472171309805
 20
12.09882965818995
 30
0.0
 11
23.14084748255737
 21
16.54495542764926
 31
0.0
  0
LINE
  5
176
330
1F
100
AcDbEntity
  8
0
100
AcDbLine
 10
23.9419403978896
 20
17.3460483429815
 30
0.0
 11
24.47884117425767
 21
17.88294911934957
 31
0.0
  0
LINE
  5
177
330
1F
100
AcDbEntity
  8
0
100
AcDbLine
 10
18.69472171309805
 20
12.17378297699572
 30
0.0
 11
23.06589416375159
 21
16.54495542764926
 31
0.0
  0
LINE
  5
178
330
1F
100
AcDbEntity
  8
0
100
AcDbLine
 10
23.9419403978896
 20
17.42100166178727
 30
0.0
 11
24.44136451485479
 21
17.92042577875246
 31
0.0
  0
LINE
  5
179
330
1F
100
AcDbEntity
  8
0
100
AcDbLine
 10
18.69472171309805
 20
12.2487362958015
 30
0.0
 11
22.99094084494582
 21
16.54495542764926
 31
0.0
  0
LINE
  5
17A
330
1F
100
AcDbEntity
  8
0
100
AcDbLine
 10
23.9419403978896
 20
17.49595498059304
 30
0.0
 11
24.4038878554519
 21
17.95790243815534
 31
0.0
  0
LINE
  5
17B
330
1F
100
AcDbEntity
  8
0
100
AcDbLine
 10
18.69472171309805
 20
12.32368961460727
 30
0.0
 11
22.91598752614005
 21
16.54495542764926
 31
0.0
  0
LINE
  5
17C
330
1F
100
AcDbEntity
  8
0
100
AcDbLine
 10
23.9419403978896
 20
17.57090829939882
 30
0.0
 11
24.36641119604901
 21
17.99537909755823
 31
0.0
  0
LINE
  5
17D
330
1F
100
AcDbEntity
  8
0
100
AcDbLine
 10
18.69472171309805
 20
12.39864293341304
 30
0.0
 11
22.84103420733427
 21
16.54495542764926
 31
0.0
  0
LINE
  5
17E
330
1F
100
AcDbEntity
  8
0
100
AcDbLine
 10
23.9419403978896
 20
17.64586161820459
 30
0.0
 11
24.32893453664613
 21
18.03285575696112
 31
0.0
  0
LINE
  5
17F
330
1F
100
AcDbEntity
  8
0
100
AcDbLine
 10
18.69472171309806
 20
12.47359625221882
 30
0.0
 11
22.7660808885285
 21
16.54495542764926
 31
0.0
  0
LINE
  5
180
330
1F
100
AcDbEntity
  8
0
100
AcDbLine
 10
23.9419403978896
 20
17.72081493701037
 30
0.0
 11
24.29145787724324
 21
18.070332416364
 31
0.0
  0
LINE
  5
181
330
1F
100
AcDbEntity
  8
0
100
AcDbLine
 10
18.69472171309805
 20
12.54854957102459
 30
0.0
 11
22.69112756972273
 21
16.54495542764926
 31
0.0
  0
LINE
  5
182
330
1F
100
AcDbEntity
  8
0
100
AcDbLine
 10
23.9419403978896
 20
17.79576825581614
 30
0.0
 11
24.25398121784036
 21
18.10780907576689
 31
0.0
  0
LINE
  5
183
330
1F
100
AcDbEntity
  8
0
100
AcDbLine
 10
18.69472171309805
 20
12.62350288983036
 30
0.0
 11
22.61617425091696
 21
16.54495542764926
 31
0.0
  0
LINE
  5
184
330
1F
100
AcDbEntity
  8
0
100
AcDbLine
 10
23.9419403978896
 20
17.87072157462191
 30
0.0
 11
24.21650455843747
 21
18.14528573516978
 31
0.0
  0
LINE
  5
185
330
1F
100
AcDbEntity
  8
0
100
AcDbLine
 10
18.69472171309805
 20
12.69845620863614
 30
0.0
 11
22.54122093211118
 21
16.54495542764927
 31
0.0
  0
LINE
  5
186
330
1F
100
AcDbEntity
  8
0
100
AcDbLine
 10
23.9419403978896
 20
17.94567489342769
 30
0.0
 11
24.17902789903458
 21
18.18276239457267
 31
0.0
  0
LINE
  5
187
330
1F
100
AcDbEntity
  8
0
100
AcDbLine
 10
18.69472171309805
 20
12.77340952744191
 30
0.0
 11
22.46626761330541
 21
16.54495542764927
 31
0.0
  0
LINE
  5
188
330
1F
100
AcDbEntity
  8
0
100
AcDbLine
 10
23.9419403978896
 20
18.02062821223346
 30
0.0
 11
24.1415512396317
 21
18.22023905397555
 31
0.0
  0
LINE
  5
189
330
1F
100
AcDbEntity
  8
0
100
AcDbLine
 10
18.69472171309805
 20
12.84836284624769
 30
0.0
 11
22.39131429449963
 21
16.54495542764926
 31
0.0
  0
LINE
  5
18A
330
1F
100
AcDbEntity
  8
0
100
AcDbLine
 10
23.9419403978896
 20
18.09558153103923
 30
0.0
 11
24.10407458022881
 21
18.25771571337844
 31
0.0
  0
LINE
  5
18B
330
1F
100
AcDbEntity
  8
0
100
AcDbLine
 10
18.69472171309805
 20
12.92331616505346
 30
0.0
 11
22.31636097569386
 21
16.54495542764927
 31
0.0
  0
LINE
  5
18C
330
1F
100
AcDbEntity
  8
0
100
AcDbLine
 10
23.9419403978896
 20
18.17053484984501
 30
0.0
 11
24.06659792082592
 21
18.29519237278133
 31
0.0
  0
LINE
  5
18D
330
1F
100
AcDbEntity
  8
0
100
AcDbLine
 10
18.69472171309805
 20
12.99826948385923
 30
0.0
 11
22.24140765688809
 21
16.54495542764927
 31
0.0
  0
LINE
  5
18E
330
1F
100
AcDbEntity
  8
0
100
AcDbLine
 10
23.9419403978896
 20
18.24548816865078
 30
0.0
 11
24.02912126142304
 21
18.33266903218421
 31
0.0
  0
LINE
  5
18F
330
1F
100
AcDbEntity
  8
0
100
AcDbLine
 10
18.69472171309805
 20
13.07322280266501
 30
0.0
 11
22.16645433808231
 21
16.54495542764927
 31
0.0
  0
LINE
  5
190
330
1F
100
AcDbEntity
  8
0
100
AcDbLine
 10
23.9419403978896
 20
18.32044148745655
 30
0.0
 11
23.99164460202015
 21
18.3701456915871
 31
0.0
  0
LINE
  5
191
330
1F
100
AcDbEntity
  8
0
100
AcDbLine
 10
18.69472171309805
 20
13.14817612147078
 30
0.0
 11
22.09150101927654
 21
16.54495542764927
 31
0.0
  0
LINE
  5
192
330
1F
100
AcDbEntity
  8
0
100
AcDbLine
 10
23.9419403978896
 20
18.39539480626233
 30
0.0
 11
23.95416794261727
 21
18.40762235098999
 31
0.0
  0
LINE
  5
193
330
1F
100
AcDbEntity
  8
0
100
AcDbLine
 10
18.69472171309805
 20
13.22312944027655
 30
0.0
 11
22.01654770047077
 21
16.54495542764927
 31
0.0
  0
LINE
  5
194
330
1F
100
AcDbEntity
  8
0
100
AcDbLine
 10
18.69472171309805
 20
13.29808275908233
 30
0.0
 11
21.941594381665
 21
16.54495542764927
 31
0.0
  0
LINE
  5
195
330
1F
100
AcDbEntity
  8
0
100
AcDbLine
 10
18.69472171309805
 20
13.3730360778881
 30
0.0
 11
21.86664106285923
 21
16.54495542764927
 31
0.0
  0
LINE
  5
196
330
1F
100
AcDbEntity
  8
0
100
AcDbLine
 10
18.69472171309805
 20
13.44798939669388
 30
0.0
 11
21.79168774405345
 21
16.54495542764927
 31
0.0
  0
LINE
  5
197
330
1F
100
AcDbEntity
  8
0
100
AcDbLine
 10
18.69472171309805
 20
13.52294271549965
 30
0.0
 11
21.71673442524768
 21
16.54495542764927
 31
0.0
  0
LINE
  5
198
330
1F
100
AcDbEntity
  8
0
100
AcDbLine
 10
18.69472171309805
 20
13.59789603430542
 30
0.0
 11
21.6417811064419
 21
16.54495542764927
 31
0.0
  0
LINE
  5
199
330
1F
100
AcDbEntity
  8
0
100
AcDbLine
 10
18.69472171309806
 20
13.6728493531112
 30
0.0
 11
21.56682778763613
 21
16.54495542764927
 31
0.0
  0
LINE
  5
19A
330
1F
100
AcDbEntity
  8
0
100
AcDbLine
 10
18.69472171309805
 20
13.74780267191697
 30
0.0
 11
21.49187446883036
 21
16.54495542764927
 31
0.0
  0
LINE
  5
19B
330
1F
100
AcDbEntity
  8
0
100
AcDbLine
 10
18.69472171309805
 20
13.82275599072274
 30
0.0
 11
21.41692115002459
 21
16.54495542764927
 31
0.0
  0
LINE
  5
19C
330
1F
100
AcDbEntity
  8
0
100
AcDbLine
 10
18.69472171309805
 20
13.89770930952852
 30
0.0
 11
21.34196783121881
 21
16.54495542764927
 31
0.0
  0
LINE
  5
19D
330
1F
100
AcDbEntity
  8
0
100
AcDbLine
 10
18.69472171309805
 20
13.97266262833429
 30
0.0
 11
21.26701451241304
 21
16.54495542764927
 31
0.0
  0
LINE
  5
19E
330
1F
100
AcDbEntity
  8
0
100
AcDbLine
 10
18.69472171309805
 20
14.04761594714006
 30
0.0
 11
21.19206119360727
 21
16.54495542764927
 31
0.0
  0
LINE
  5
19F
330
1F
100
AcDbEntity
  8
0
100
AcDbLine
 10
18.69472171309805
 20
14.12256926594584
 30
0.0
 11
21.11710787480149
 21
16.54495542764927
 31
0.0
  0
LINE
  5
1A0
330
1F
100
AcDbEntity
  8
0
100
AcDbLine
 10
18.69472171309805
 20
14.19752258475161
 30
0.0
 11
21.04215455599572
 21
16.54495542764927
 31
0.0
  0
LINE
  5
1A1
330
1F
100
AcDbEntity
  8
0
100
AcDbLine
 10
18.69472171309805
 20
14.27247590355739
 30
0.0
 11
20.96720123718994
 21
16.54495542764927
 31
0.0
  0
LINE
  5
1A2
330
1F
100
AcDbEntity
  8
0
100
AcDbLine
 10
18.69472171309806
 20
14.34742922236316
 30
0.0
 11
20.89224791838417
 21
16.54495542764928
 31
0.0
  0
LINE
  5
1A3
330
1F
100
AcDbEntity
  8
0
100
AcDbLine
 10
18.69472171309805
 20
14.42238254116893
 30
0.0
 11
20.8172945995784
 21
16.54495542764928
 31
0.0
  0
LINE
  5
1A4
330
1F
100
AcDbEntity
  8
0
100
AcDbLine
 10
18.69472171309805
 20
14.49733585997471
 30
0.0
 11
20.74234128077262
 21
16.54495542764927
 31
0.0
  0
LINE
  5
1A5
330
1F
100
AcDbEntity
  8
0
100
AcDbLine
 10
18.69472171309805
 20
14.57228917878048
 30
0.0
 11
20.66738796196685
 21
16.54495542764928
 31
0.0
  0
LINE
  5
1A6
330
1F
100
AcDbEntity
  8
0
100
AcDbLine
 10
18.69472171309805
 20
14.64724249758625
 30
0.0
 11
20.59243464316108
 21
16.54495542764928
 31
0.0
  0
LINE
  5
1A7
330
1F
100
AcDbEntity
  8
0
100
AcDbLine
 10
18.69472171309805
 20
14.72219581639203
 30
0.0
 11
20.51748132435531
 21
16.54495542764928
 31
0.0
  0
LINE
  5
1A8
330
1F
100
AcDbEntity
  8
0
100
AcDbLine
 10
18.69472171309805
 20
14.7971491351978
 30
0.0
 11
20.44252800554953
 21
16.54495542764928
 31
0.0
  0
LINE
  5
1A9
330
1F
100
AcDbEntity
  8
0
100
AcDbLine
 10
18.69472171309805
 20
14.87210245400357
 30
0.0
 11
20.36757468674376
 21
16.54495542764928
 31
0.0
  0
LINE
  5
1AA
330
1F
100
AcDbEntity
  8
0
100
AcDbLine
 10
18.69472171309805
 20
14.94705577280935
 30
0.0
 11
20.29262136793799
 21
16.54495542764928
 31
0.0
  0
LINE
  5
1AB
330
1F
100
AcDbEntity
  8
0
100
AcDbLine
 10
18.69472171309805
 20
15.02200909161512
 30
0.0
 11
20.21766804913221
 21
16.54495542764928
 31
0.0
  0
LINE
  5
1AC
330
1F
100
AcDbEntity
  8
0
100
AcDbLine
 10
18.69472171309805
 20
15.0969624104209
 30
0.0
 11
20.14271473032644
 21
16.54495542764928
 31
0.0
  0
LINE
  5
1AD
330
1F
100
AcDbEntity
  8
0
100
AcDbLine
 10
18.69472171309806
 20
15.17191572922667
 30
0.0
 11
20.06776141152067
 21
16.54495542764928
 31
0.0
  0
LINE
  5
1AE
330
1F
100
AcDbEntity
  8
0
100
AcDbLine
 10
18.69472171309805
 20
15.24686904803244
 30
0.0
 11
19.99280809271489
 21
16.54495542764928
 31
0.0
  0
LINE
  5
1AF
330
1F
100
AcDbEntity
  8
0
100
AcDbLine
 10
18.69472171309805
 20
15.32182236683822
 30
0.0
 11
19.91785477390912
 21
16.54495542764928
 31
0.0
  0
LINE
  5
1B0
330
1F
100
AcDbEntity
  8
0
100
AcDbLine
 10
18.69472171309805
 20
15.39677568564399
 30
0.0
 11
19.84290145510335
 21
16.54495542764928
 31
0.0
  0
LINE
  5
1B1
330
1F
100
AcDbEntity
  8
0
100
AcDbLine
 10
18.69472171309805
 20
15.47172900444977
 30
0.0
 11
19.76794813629757
 21
16.54495542764928
 31
0.0
  0
LINE
  5
1B2
330
1F
100
AcDbEntity
  8
0
100
AcDbLine
 10
18.69472171309805
 20
15.54668232325554
 30
0.0
 11
19.6929948174918
 21
16.54495542764928
 31
0.0
  0
LINE
  5
1B3
330
1F
100
AcDbEntity
  8
0
100
AcDbLine
 10
18.69472171309806
 20
15.62163564206132
 30
0.0
 11
19.61804149868603
 21
16.54495542764928
 31
0.0
  0
LINE
  5
1B4
330
1F
100
AcDbEntity
  8
0
100
AcDbLine
 10
18.69472171309805
 20
15.69658896086709
 30
0.0
 11
19.54308817988025
 21
16.54495542764928
 31
0.0
  0
LINE
  5
1B5
330
1F
100
AcDbEntity
  8
0
100
AcDbLine
 10
18.69472171309805
 20
15.77154227967286
 30
0.0
 11
19.46813486107448
 21
16.54495542764929
 31
0.0
  0
LINE
  5
1B6
330
1F
100
AcDbEntity
  8
0
100
AcDbLine
 10
18.69472171309806
 20
15.84649559847864
 30
0.0
 11
19.39318154226871
 21
16.54495542764929
 31
0.0
  0
LINE
  5
1B7
330
1F
100
AcDbEntity
  8
0
100
AcDbLine
 10
18.69472171309805
 20
15.92144891728441
 30
0.0
 11
19.31822822346293
 21
16.54495542764928
 31
0.0
  0
LINE
  5
1B8
330
1F
100
AcDbEntity
  8
0
100
AcDbLine
 10
18.69472171309805
 20
15.99640223609019
 30
0.0
 11
19.24327490465716
 21
16.54495542764928
 31
0.0
  0
LINE
  5
1B9
330
1F
100
AcDbEntity
  8
0
100
AcDbLine
 10
18.69472171309805
 20
16.07135555489596
 30
0.0
 11
19.16832158585138
 21
16.54495542764929
 31
0.0
  0
LINE
  5
1BA
330
1F
100
AcDbEntity
  8
0
100
AcDbLine
 10
18.69472171309805
 20
16.14630887370173
 30
0.0
 11
19.09336826704561
 21
16.54495542764929
 31
0.0
  0
LINE
  5
1BB
330
1F
100
AcDbEntity
  8
0
100
AcDbLine
 10
18.69472171309805
 20
16.22126219250751
 30
0.0
 11
19.01841494823984
 21
16.54495542764929
 31
0.0
  0
LINE
  5
1BC
330
1F
100
AcDbEntity
  8
0
100
AcDbLine
 10
18.69472171309805
 20
16.29621551131328
 30
0.0
 11
18.94346162943406
 21
16.54495542764929
 31
0.0
  0
LINE
  5
1BD
330
1F
100
AcDbEntity
  8
0
100
AcDbLine
 10
18.69472171309805
 20
16.37116883011905
 30
0.0
 11
18.86850831062829
 21
16.54495542764929
 31
0.0
  0
LINE
  5
1BE
330
1F
100
AcDbEntity
  8
0
100
AcDbLine
 10
18.69472171309805
 20
16.44612214892483
 30
0.0
 11
18.79355499182251
 21
16.54495542764929
 31
0.0
  0
LINE
  5
1BF
330
1F
100
AcDbEntity
  8
0
100
AcDbLine
 10
18.69472171309805
 20
16.5210754677306
 30
0.0
 11
18.71860167301674
 21
16.54495542764929
 31
0.0
  0
ENDSEC
  0
SECTION
  2
OBJECTS
  0
DICTIONARY
  5
C
330
0
100
AcDbDictionary
281
     1
  3
ACAD_COLOR
350
6C
  3
ACAD_GROUP
350
D
  3
ACAD_LAYOUT
350
1A
  3
ACAD_MATERIAL
350
6B
  3
ACAD_MLINESTYLE
350
17
  3
ACAD_PLOTSETTINGS
350
19
  3
ACAD_PLOTSTYLENAME
350
E
  3
ACAD_TABLESTYLE
350
92
  3
AcDbVariableDictionary
350
59
  0
DICTIONARY
  5
6C
102
{ACAD_REACTORS
330
C
102
}
330
C
100
AcDbDictionary
281
     1
  0
DICTIONARY
  5
D
102
{ACAD_REACTORS
330
C
102
}
330
C
100
AcDbDictionary
281
     1
  0
DICTIONARY
  5
1A
102
{ACAD_REACTORS
330
C
102
}
330
C
100
AcDbDictionary
281
     1
  3
Layout1
350
74
  3
Layout2
350
9C
  3
Model
350
22
  0
DICTIONARY
  5
6B
102
{ACAD_REACTORS
330
C
102
}
330
C
100
AcDbDictionary
281
     1
  0
DICTIONARY
  5
17
102
{ACAD_REACTORS
330
C
102
}
330
C
100
AcDbDictionary
281
     1
  3
Standard
350
18
  0
DICTIONARY
  5
19
102
{ACAD_REACTORS
330
C
102
}
330
C
100
AcDbDictionary
281
     1
  0
ACDBDICTIONARYWDFLT
  5
E
102
{ACAD_REACTORS
330
C
102
}
330
C
100
AcDbDictionary
281
     1
  3
Normal
350
F
100
AcDbDictionaryWithDefault
340
F
  0
DICTIONARY
  5
92
102
{ACAD_REACTORS
330
C
102
}
330
C
100
AcDbDictionary
281
     1
  0
DICTIONARY
  5
59
102
{ACAD_REACTORS
330
C
102
}
330
C
100
AcDbDictionary
281
     1
  3
CTABLESTYLE
350
98
  0
LAYOUT
  5
74
102
{ACAD_REACTORS
330
1A
102
}
330
1A
100
AcDbPlotSettings
  1

  2
\\ADSCCNDC1\hq601xrx1
  4

  6

 40
0.0
 41
0.0
 42
0.0
 43
0.0
 44
0.0
 45
0.0
 46
0.0
 47
0.0
 48
0.0
 49
0.0
140
0.0
141
0.0
142
1.0
143
1.0
 70
   688
 72
     0
 73
     0
 74
     5
  7

 75
    16
 76
     0
 77
     2
 78
   300
147
1.0
148
0.0
149
0.0
100
AcDbLayout
  1
Layout1
 70
     1
 71
     1
 10
0.0
 20
0.0
 11
12.0
 21
9.0
 12
0.0
 22
0.0
 32
0.0
 14
0.0
 24
0.0
 34
0.0
 15
0.0
 25
0.0
 35
0.0
146
0.0
 13
0.0
 23
0.0
 33
0.0
 16
1.0
 26
0.0
 36
0.0
 17
0.0
 27
1.0
 37
0.0
 76
     0
330
73
  0
LAYOUT
  5
9C
102
{ACAD_REACTORS
330
1A
102
}
330
1A
100
AcDbPlotSettings
  1

  2
None
  4

  6

 40
0.0
 41
0.0
 42
0.0
 43
0.0
 44
0.0
 45
0.0
 46
0.0
 47
0.0
 48
0.0
 49
0.0
140
0.0
141
0.0
142
1.0
143
1.0
 70
   688
 72
     0
 73
     0
 74
     5
  7

 75
    16
 76
     0
 77
     2
 78
   300
147
1.0
148
0.0
149
0.0
100
AcDbLayout
  1
Layout2
 70
     1
 71
     2
 10
0.0
 20
0.0
 11
12.0
 21
9.0
 12
0.0
 22
0.0
 32
0.0
 14
1.000000000000000E+20
 24
1.000000000000000E+20
 34
1.000000000000000E+20
 15
-1.000000000000000E+20
 25
-1.000000000000000E+20
 35
-1.000000000000000E+20
146
0.0
 13
0.0
 23
0.0
 33
0.0
 16
1.0
 26
0.0
 36
0.0
 17
0.0
 27
1.0
 37
0.0
 76
     0
330
9B
  0
LAYOUT
  5
22
102
{ACAD_REACTORS
330
1A
102
}
330
1A
100
AcDbPlotSettings
  1

  2
none_device
  4
Letter_(8.50_x_11.00_Inches)
  6

 40
6.349999904632568
 41
6.349999904632568
 42
6.350006103515625
 43
6.350006103515625
 44
215.8999938964844
 45
279.3999938964844
 46
0.0
 47
0.0
 48
0.0
 49
0.0
140
0.0
141
0.0
142
1.0
143
3.560208697428377
 70
 11952
 72
     0
 73
     1
 74
     0
  7

 75
     0
 76
     0
 77
     2
 78
   300
147
0.28088241027059
148
0.1311165230791651
149
0.096403374003771
100
AcDbLayout
  1
Model
 70
     1
 71
     0
 10
0.0
 20
0.0
 11
12.0
 21
9.0
 12
0.0
 22
0.0
 32
0.0
 14
18.69472171309805
 24
8.91430286358139
 34
0.0
 15
28.69471391395788
 25
18.41984989571765
 35
0.0
146
0.0
 13
0.0
 23
0.0
 33
0.0
 16
1.0
 26
0.0
 36
0.0
 17
0.0
 27
1.0
 37
0.0
 76
     0
330
1F
  0
MLINESTYLE
  5
18
102
{ACAD_REACTORS
330
17
102
}
330
17
100
AcDbMlineStyle
  2
Standard
 70
     0
  3

 62
   256
 51
90.0
 52
90.0
 71
     2
 49
0.5
 62
   256
  6
BYLAYER
 49
-0.5
 62
   256
  6
BYLAYER
  0
ACDBPLACEHOLDER
  5
F
102
{ACAD_REACTORS
330
E
102
}
330
E
  0
DICTIONARYVAR
  5
98
102
{ACAD_REACTORS
330
59
102
}
330
59
100
DictionaryVariables
280
     0
  1
STANDARD
  0
ENDSEC
  0
EOF
